ISO-10303-21;
HEADER;
FILE_DESCRIPTION (( 'STEP AP203' ),
    '1' );
FILE_NAME ('Q-DWWP-R12-20-1064-SH-M.STEP',
    '2020-12-22T08:52:59',
    ( '' ),
    ( '' ),
    'SwSTEP 2.0',
    'SolidWorks 2020',
    '' );
FILE_SCHEMA (( 'CONFIG_CONTROL_DESIGN' ));
ENDSEC;

DATA;
#1 = PERSON_AND_ORGANIZATION ( #283, #146 ) ;
#2 = CIRCLE ( 'NONE', #303, 3.000000000000000000 ) ;
#3 = CARTESIAN_POINT ( 'NONE',  ( -1.500000000000000000, 0.000000000000000000, 0.000000000000000000 ) ) ;
#4 = DESIGN_CONTEXT ( 'detailed design', #17, 'design' ) ;
#5 = DIRECTION ( 'NONE',  ( -1.000000000000000000, -0.000000000000000000, -0.000000000000000000 ) ) ;
#6 = AXIS2_PLACEMENT_3D ( 'NONE', #227, #278, #280 ) ;
#7 = APPLICATION_PROTOCOL_DEFINITION ( 'international standard', 'config_control_design', 1994, #17 ) ;
#8 = AXIS2_PLACEMENT_3D ( 'NONE', #294, #215, #288 ) ;
#9 = ORIENTED_EDGE ( 'NONE', *, *, #249, .T. ) ;
#10 = DATE_AND_TIME ( #174, #59 ) ;
#11 = ORIENTED_EDGE ( 'NONE', *, *, #137, .F. ) ;
#12 = ORIENTED_EDGE ( 'NONE', *, *, #88, .T. ) ;
#13 = ADVANCED_FACE ( 'NONE', ( #333, #135 ), #253, .F. ) ;
#14 = ORIENTED_EDGE ( 'NONE', *, *, #38, .T. ) ;
#15 = APPROVAL_PERSON_ORGANIZATION ( #1, #112, #212 ) ;
#16 = ORIENTED_EDGE ( 'NONE', *, *, #304, .F. ) ;
#17 = APPLICATION_CONTEXT ( 'configuration controlled 3d designs of mechanical parts and assemblies' ) ;
#18 = CYLINDRICAL_SURFACE ( 'NONE', #244, 5.000000000000000000 ) ;
#19 = AXIS2_PLACEMENT_3D ( 'NONE', #130, #132, #68 ) ;
#20 = LOCAL_TIME ( 16, 52, 59.00000000000000000, #164 ) ;
#21 = FACE_OUTER_BOUND ( 'NONE', #125, .T. ) ;
#22 = CARTESIAN_POINT ( 'NONE',  ( -1.500000000000000000, 0.000000000000000000, 3.000000000000000000 ) ) ;
#23 = DIRECTION ( 'NONE',  ( 0.000000000000000000, 0.000000000000000000, 1.000000000000000000 ) ) ;
#24 = CC_DESIGN_SECURITY_CLASSIFICATION ( #53, ( #324 ) ) ;
#25 = CC_DESIGN_PERSON_AND_ORGANIZATION_ASSIGNMENT ( #328, #42, ( #53 ) ) ;
#26 = CARTESIAN_POINT ( 'NONE',  ( 1.500000000000000444, 0.000000000000000000, 3.000000000000000000 ) ) ;
#27 = DATE_TIME_ROLE ( 'creation_date' ) ;
#28 = FACE_OUTER_BOUND ( 'NONE', #270, .T. ) ;
#29 = LINE ( 'NONE', #289, #120 ) ;
#30 = UNCERTAINTY_MEASURE_WITH_UNIT (LENGTH_MEASURE( 1.000000000000000082E-05 ), #169, 'distance_accuracy_value', 'NONE');
#31 = LINE ( 'NONE', #238, #43 ) ;
#32 = AXIS2_PLACEMENT_3D ( 'NONE', #257, #259, #264 ) ;
#33 = ADVANCED_FACE ( 'NONE', ( #159 ), #18, .T. ) ;
#34 = DIRECTION ( 'NONE',  ( 0.000000000000000000, 0.000000000000000000, 1.000000000000000000 ) ) ;
#35 = EDGE_LOOP ( 'NONE', ( #197, #242, #220, #16 ) ) ;
#36 = CIRCLE ( 'NONE', #134, 3.000000000000000000 ) ;
#37 = CALENDAR_DATE ( 2020, 22, 12 ) ;
#38 = EDGE_CURVE ( 'NONE', #245, #41, #329, .T. ) ;
#39 = AXIS2_PLACEMENT_3D ( 'NONE', #217, #261, #167 ) ;
#40 = EDGE_LOOP ( 'NONE', ( #319, #196 ) ) ;
#41 = VERTEX_POINT ( 'NONE', #46 ) ;
#42 = PERSON_AND_ORGANIZATION_ROLE ( 'classification_officer' ) ;
#43 = VECTOR ( 'NONE', #311, 1000.000000000000000 ) ;
#44 = CARTESIAN_POINT ( 'NONE',  ( -0.5000000000000002220, 3.673940397442059868E-16, -3.000000000000000000 ) ) ;
#45 = DIRECTION ( 'NONE',  ( -1.000000000000000000, -0.000000000000000000, -0.000000000000000000 ) ) ;
#46 = CARTESIAN_POINT ( 'NONE',  ( 0.5000000000000004441, 3.673940397442059868E-16, -3.000000000000000000 ) ) ;
#47 = VECTOR ( 'NONE', #232, 1000.000000000000000 ) ;
#48 = PLANE ( 'NONE',  #19 ) ;
#49 = DIRECTION ( 'NONE',  ( 0.000000000000000000, 0.000000000000000000, 1.000000000000000000 ) ) ;
#50 = CC_DESIGN_DATE_AND_TIME_ASSIGNMENT ( #58, #27, ( #229 ) ) ;
#51 = CIRCLE ( 'NONE', #186, 3.000000000000000000 ) ;
#52 = DIRECTION ( 'NONE',  ( 0.000000000000000000, 0.000000000000000000, 1.000000000000000000 ) ) ;
#53 = SECURITY_CLASSIFICATION ( '', '', #87 ) ;
#54 = CARTESIAN_POINT ( 'NONE',  ( -0.5000000000000002220, 0.000000000000000000, 0.000000000000000000 ) ) ;
#55 = DIRECTION ( 'NONE',  ( 0.000000000000000000, 0.000000000000000000, 1.000000000000000000 ) ) ;
#56 = DIRECTION ( 'NONE',  ( -1.000000000000000000, -0.000000000000000000, -0.000000000000000000 ) ) ;
#57 = CARTESIAN_POINT ( 'NONE',  ( -1.500000000000000000, 6.123233995736766282E-16, -5.000000000000000000 ) ) ;
#58 = DATE_AND_TIME ( #258, #20 ) ;
#59 = LOCAL_TIME ( 16, 52, 59.00000000000000000, #223 ) ;
#60 = DIRECTION ( 'NONE',  ( -1.000000000000000000, -0.000000000000000000, -0.000000000000000000 ) ) ;
#61 = CARTESIAN_POINT ( 'NONE',  ( -1.500000000000000000, 0.000000000000000000, 0.000000000000000000 ) ) ;
#62 = APPROVAL_ROLE ( '' ) ;
#63 = APPROVAL ( #250, 'UNSPECIFIED' ) ;
#64 = ORIENTED_EDGE ( 'NONE', *, *, #38, .F. ) ;
#65 = AXIS2_PLACEMENT_3D ( 'NONE', #171, #268, #34 ) ;
#66 = ORIENTED_EDGE ( 'NONE', *, *, #267, .F. ) ;
#67 = ORIENTED_EDGE ( 'NONE', *, *, #107, .F. ) ;
#68 = DIRECTION ( 'NONE',  ( 0.000000000000000000, 0.000000000000000000, -1.000000000000000000 ) ) ;
#69 = CIRCLE ( 'NONE', #177, 3.000000000000000000 ) ;
#70 = CARTESIAN_POINT ( 'NONE',  ( 0.5000000000000004441, 0.000000000000000000, 0.000000000000000000 ) ) ;
#71 = EDGE_LOOP ( 'NONE', ( #128, #9, #102, #219 ) ) ;
#72 = ORIENTED_EDGE ( 'NONE', *, *, #235, .T. ) ;
#73 = DIRECTION ( 'NONE',  ( -1.000000000000000000, -0.000000000000000000, -0.000000000000000000 ) ) ;
#74 = ADVANCED_FACE ( 'NONE', ( #298 ), #48, .F. ) ;
#75 = AXIS2_PLACEMENT_3D ( 'NONE', #228, #45, #252 ) ;
#76 = DIRECTION ( 'NONE',  ( -1.000000000000000000, -0.000000000000000000, -0.000000000000000000 ) ) ;
#77 = CARTESIAN_POINT ( 'NONE',  ( -1.500000000000000000, 3.673940397442059868E-16, -3.000000000000000000 ) ) ;
#78 = CARTESIAN_POINT ( 'NONE',  ( -1.614212418857619014, 3.673940397442059868E-16, -3.000000000000000000 ) ) ;
#79 = CARTESIAN_POINT ( 'NONE',  ( -1.500000000000000000, 0.000000000000000000, 5.000000000000000000 ) ) ;
#80 = CARTESIAN_POINT ( 'NONE',  ( 0.5000000000000004441, 0.000000000000000000, 3.000000000000000000 ) ) ;
#81 = PERSON_AND_ORGANIZATION_ROLE ( 'creator' ) ;
#82 = FACE_OUTER_BOUND ( 'NONE', #184, .T. ) ;
#83 = ADVANCED_FACE ( 'NONE', ( #21 ), #203, .F. ) ;
#84 = EDGE_LOOP ( 'NONE', ( #297, #295 ) ) ;
#85 = CC_DESIGN_PERSON_AND_ORGANIZATION_ASSIGNMENT ( #93, #320, ( #324 ) ) ;
#86 = ORIENTED_EDGE ( 'NONE', *, *, #304, .T. ) ;
#87 = SECURITY_CLASSIFICATION_LEVEL ( 'unclassified' ) ;
#88 = EDGE_CURVE ( 'NONE', #194, #94, #51, .T. ) ;
#89 = EDGE_LOOP ( 'NONE', ( #101, #96 ) ) ;
#90 = CALENDAR_DATE ( 2020, 22, 12 ) ;
#91 = CIRCLE ( 'NONE', #310, 3.000000000000000000 ) ;
#92 = VERTEX_POINT ( 'NONE', #22 ) ;
#93 = PERSON_AND_ORGANIZATION ( #283, #146 ) ;
#94 = VERTEX_POINT ( 'NONE', #44 ) ;
#95 = DATE_AND_TIME ( #37, #180 ) ;
#96 = ORIENTED_EDGE ( 'NONE', *, *, #255, .F. ) ;
#97 = SHAPE_DEFINITION_REPRESENTATION ( #276, #115 ) ;
#98 = DIRECTION ( 'NONE',  ( 1.000000000000000000, 0.000000000000000000, 0.000000000000000000 ) ) ;
#99 = CIRCLE ( 'NONE', #299, 5.000000000000000000 ) ;
#100 = CC_DESIGN_PERSON_AND_ORGANIZATION_ASSIGNMENT ( #213, #81, ( #229 ) ) ;
#101 = ORIENTED_EDGE ( 'NONE', *, *, #88, .F. ) ;
#102 = ORIENTED_EDGE ( 'NONE', *, *, #107, .T. ) ;
#103 = DIRECTION ( 'NONE',  ( -0.000000000000000000, 0.000000000000000000, 1.000000000000000000 ) ) ;
#104 = APPROVAL_PERSON_ORGANIZATION ( #155, #63, #325 ) ;
#105 = DIRECTION ( 'NONE',  ( -1.000000000000000000, -0.000000000000000000, -0.000000000000000000 ) ) ;
#106 = DIRECTION ( 'NONE',  ( -1.000000000000000000, -0.000000000000000000, -0.000000000000000000 ) ) ;
#107 = EDGE_CURVE ( 'NONE', #41, #245, #36, .T. ) ;
#108 = PERSON_AND_ORGANIZATION ( #283, #146 ) ;
#109 = CLOSED_SHELL ( 'NONE', ( #33, #240, #122, #187, #83, #126, #306, #165, #13, #74 ) ) ;
#110 = DIRECTION ( 'NONE',  ( 0.000000000000000000, 0.000000000000000000, 1.000000000000000000 ) ) ;
#111 = PERSON_AND_ORGANIZATION_ROLE ( 'design_owner' ) ;
#112 = APPROVAL ( #263, 'UNSPECIFIED' ) ;
#113 = CARTESIAN_POINT ( 'NONE',  ( -1.614212418857619014, 0.000000000000000000, 0.000000000000000000 ) ) ;
#114 = APPROVAL_DATE_TIME ( #119, #112 ) ;
#115 = ADVANCED_BREP_SHAPE_REPRESENTATION ( 'Q-DWWP-R12-20-1064-SH-M', ( #117, #39 ), #193 ) ;
#116 = DIRECTION ( 'NONE',  ( -1.000000000000000000, -0.000000000000000000, -0.000000000000000000 ) ) ;
#117 = MANIFOLD_SOLID_BREP ( 'Ðý×', #109 ) ;
#118 = ORIENTED_EDGE ( 'NONE', *, *, #137, .T. ) ;
#119 = DATE_AND_TIME ( #145, #277 ) ;
#120 = VECTOR ( 'NONE', #56, 1000.000000000000000 ) ;
#121 = ORIENTED_EDGE ( 'NONE', *, *, #192, .T. ) ;
#122 = ADVANCED_FACE ( 'NONE', ( #300 ), #331, .F. ) ;
#123 = ORIENTED_EDGE ( 'NONE', *, *, #207, .T. ) ;
#124 = EDGE_CURVE ( 'NONE', #275, #218, #271, .T. ) ;
#125 = EDGE_LOOP ( 'NONE', ( #282, #326, #121, #14 ) ) ;
#126 = ADVANCED_FACE ( 'NONE', ( #160 ), #222, .F. ) ;
#127 = AXIS2_PLACEMENT_3D ( 'NONE', #162, #140, #190 ) ;
#128 = ORIENTED_EDGE ( 'NONE', *, *, #248, .F. ) ;
#129 = DATE_TIME_ROLE ( 'classification_date' ) ;
#130 = CARTESIAN_POINT ( 'NONE',  ( -0.5000000000000002220, 3.000000000000000000, 0.000000000000000000 ) ) ;
#131 = COORDINATED_UNIVERSAL_TIME_OFFSET ( 8, 0, .AHEAD. ) ;
#132 = DIRECTION ( 'NONE',  ( 1.000000000000000000, 0.000000000000000000, 0.000000000000000000 ) ) ;
#133 = CC_DESIGN_DATE_AND_TIME_ASSIGNMENT ( #198, #129, ( #53 ) ) ;
#134 = AXIS2_PLACEMENT_3D ( 'NONE', #327, #157, #138 ) ;
#135 = FACE_BOUND ( 'NONE', #40, .T. ) ;
#136 = CC_DESIGN_APPROVAL ( #156, ( #324 ) ) ;
#137 = EDGE_CURVE ( 'NONE', #94, #301, #291, .T. ) ;
#138 = DIRECTION ( 'NONE',  ( 0.000000000000000000, 0.000000000000000000, 1.000000000000000000 ) ) ;
#139 = CARTESIAN_POINT ( 'NONE',  ( -1.614212418857619014, 0.000000000000000000, 0.000000000000000000 ) ) ;
#140 = DIRECTION ( 'NONE',  ( -1.000000000000000000, -0.000000000000000000, -0.000000000000000000 ) ) ;
#141 = CARTESIAN_POINT ( 'NONE',  ( 1.500000000000000444, 3.673940397442059868E-16, -3.000000000000000000 ) ) ;
#142 = DIRECTION ( 'NONE',  ( -1.000000000000000000, -0.000000000000000000, -0.000000000000000000 ) ) ;
#143 = AXIS2_PLACEMENT_3D ( 'NONE', #139, #76, #256 ) ;
#144 = DIRECTION ( 'NONE',  ( -1.000000000000000000, -0.000000000000000000, -0.000000000000000000 ) ) ;
#145 = CALENDAR_DATE ( 2020, 22, 12 ) ;
#146 = ORGANIZATION ( 'UNSPECIFIED', 'UNSPECIFIED', '' ) ;
#147 = DIRECTION ( 'NONE',  ( -1.000000000000000000, -0.000000000000000000, -0.000000000000000000 ) ) ;
#148 = EDGE_CURVE ( 'NONE', #179, #317, #69, .T. ) ;
#149 = CARTESIAN_POINT ( 'NONE',  ( -1.614212418857619014, 6.123233995736766282E-16, -5.000000000000000000 ) ) ;
#150 = ORIENTED_EDGE ( 'NONE', *, *, #260, .F. ) ;
#151 = AXIS2_PLACEMENT_3D ( 'NONE', #307, #285, #52 ) ;
#152 = EDGE_LOOP ( 'NONE', ( #66, #221 ) ) ;
#153 = PERSON_AND_ORGANIZATION_ROLE ( 'creator' ) ;
#154 = PRODUCT ( 'Q-DWWP-R12-20-1064-SH-M', 'Q-DWWP-R12-20-1064-SH-M', '', ( #195 ) ) ;
#155 = PERSON_AND_ORGANIZATION ( #283, #146 ) ;
#156 = APPROVAL ( #308, 'UNSPECIFIED' ) ;
#157 = DIRECTION ( 'NONE',  ( -1.000000000000000000, -0.000000000000000000, -0.000000000000000000 ) ) ;
#158 = AXIS2_PLACEMENT_3D ( 'NONE', #262, #144, #313 ) ;
#159 = FACE_OUTER_BOUND ( 'NONE', #35, .T. ) ;
#160 = FACE_OUTER_BOUND ( 'NONE', #243, .T. ) ;
#161 = AXIS2_PLACEMENT_3D ( 'NONE', #70, #73, #204 ) ;
#162 = CARTESIAN_POINT ( 'NONE',  ( 1.500000000000000444, 0.000000000000000000, 0.000000000000000000 ) ) ;
#163 = VECTOR ( 'NONE', #5, 1000.000000000000000 ) ;
#164 = COORDINATED_UNIVERSAL_TIME_OFFSET ( 8, 0, .AHEAD. ) ;
#165 = ADVANCED_FACE ( 'NONE', ( #82 ), #208, .T. ) ;
#166 = DIRECTION ( 'NONE',  ( 1.000000000000000000, 0.000000000000000000, 0.000000000000000000 ) ) ;
#167 = DIRECTION ( 'NONE',  ( 1.000000000000000000, 0.000000000000000000, 0.000000000000000000 ) ) ;
#168 = DIRECTION ( 'NONE',  ( 0.000000000000000000, 0.000000000000000000, 1.000000000000000000 ) ) ;
#169 =( LENGTH_UNIT ( ) NAMED_UNIT ( * ) SI_UNIT ( .MILLI., .METRE. ) );
#170 = AXIS2_PLACEMENT_3D ( 'NONE', #61, #172, #55 ) ;
#171 = CARTESIAN_POINT ( 'NONE',  ( 1.500000000000000000, 0.000000000000000000, 0.000000000000000000 ) ) ;
#172 = DIRECTION ( 'NONE',  ( -1.000000000000000000, -0.000000000000000000, -0.000000000000000000 ) ) ;
#173 = ORIENTED_EDGE ( 'NONE', *, *, #199, .T. ) ;
#174 = CALENDAR_DATE ( 2020, 22, 12 ) ;
#175 = AXIS2_PLACEMENT_3D ( 'NONE', #332, #284, #49 ) ;
#176 = EDGE_LOOP ( 'NONE', ( #64, #67 ) ) ;
#177 = AXIS2_PLACEMENT_3D ( 'NONE', #210, #106, #168 ) ;
#178 = ORIENTED_EDGE ( 'NONE', *, *, #255, .T. ) ;
#179 = VERTEX_POINT ( 'NONE', #26 ) ;
#180 = LOCAL_TIME ( 16, 52, 59.00000000000000000, #131 ) ;
#181 = DIRECTION ( 'NONE',  ( -1.000000000000000000, 0.000000000000000000, -0.000000000000000000 ) ) ;
#182 = ORIENTED_EDGE ( 'NONE', *, *, #124, .T. ) ;
#183 = VERTEX_POINT ( 'NONE', #57 ) ;
#184 = EDGE_LOOP ( 'NONE', ( #150, #182, #86, #216 ) ) ;
#185 = LINE ( 'NONE', #237, #330 ) ;
#186 = AXIS2_PLACEMENT_3D ( 'NONE', #302, #98, #205 ) ;
#187 = ADVANCED_FACE ( 'NONE', ( #189 ), #191, .F. ) ;
#188 = LINE ( 'NONE', #287, #47 ) ;
#189 = FACE_OUTER_BOUND ( 'NONE', #176, .T. ) ;
#190 = DIRECTION ( 'NONE',  ( 0.000000000000000000, 0.000000000000000000, 1.000000000000000000 ) ) ;
#191 = PLANE ( 'NONE',  #32 ) ;
#192 = EDGE_CURVE ( 'NONE', #179, #245, #29, .T. ) ;
#193 =( GEOMETRIC_REPRESENTATION_CONTEXT ( 3 ) GLOBAL_UNCERTAINTY_ASSIGNED_CONTEXT ( ( #30 ) ) GLOBAL_UNIT_ASSIGNED_CONTEXT ( ( #169, #315, #269 ) ) REPRESENTATION_CONTEXT ( 'NONE', 'WORKASPACE' ) );
#194 = VERTEX_POINT ( 'NONE', #312 ) ;
#195 = MECHANICAL_CONTEXT ( 'NONE', #266, 'mechanical' ) ;
#196 = ORIENTED_EDGE ( 'NONE', *, *, #248, .T. ) ;
#197 = ORIENTED_EDGE ( 'NONE', *, *, #267, .T. ) ;
#198 = DATE_AND_TIME ( #90, #247 ) ;
#199 = EDGE_CURVE ( 'NONE', #183, #296, #99, .T. ) ;
#200 = APPROVAL_DATE_TIME ( #10, #156 ) ;
#201 = CARTESIAN_POINT ( 'NONE',  ( 1.500000000000000222, 5.000000000000000000, 0.000000000000000000 ) ) ;
#202 = CIRCLE ( 'NONE', #170, 5.000000000000000000 ) ;
#203 = CYLINDRICAL_SURFACE ( 'NONE', #6, 3.000000000000000000 ) ;
#204 = DIRECTION ( 'NONE',  ( 0.000000000000000000, 0.000000000000000000, 1.000000000000000000 ) ) ;
#205 = DIRECTION ( 'NONE',  ( 0.000000000000000000, 0.000000000000000000, -1.000000000000000000 ) ) ;
#206 = EDGE_CURVE ( 'NONE', #301, #92, #91, .T. ) ;
#207 = EDGE_CURVE ( 'NONE', #92, #301, #316, .T. ) ;
#208 = CYLINDRICAL_SURFACE ( 'NONE', #281, 5.000000000000000000 ) ;
#209 = PERSON_AND_ORGANIZATION ( #283, #146 ) ;
#210 = CARTESIAN_POINT ( 'NONE',  ( 1.500000000000000444, 0.000000000000000000, 0.000000000000000000 ) ) ;
#211 = CC_DESIGN_APPROVAL ( #63, ( #53 ) ) ;
#212 = APPROVAL_ROLE ( '' ) ;
#213 = PERSON_AND_ORGANIZATION ( #283, #146 ) ;
#214 = DIRECTION ( 'NONE',  ( 0.000000000000000000, 0.000000000000000000, 1.000000000000000000 ) ) ;
#215 = DIRECTION ( 'NONE',  ( 1.000000000000000000, 0.000000000000000000, 0.000000000000000000 ) ) ;
#216 = ORIENTED_EDGE ( 'NONE', *, *, #199, .F. ) ;
#217 = CARTESIAN_POINT ( 'NONE',  ( 0.000000000000000000, 0.000000000000000000, 0.000000000000000000 ) ) ;
#218 = VERTEX_POINT ( 'NONE', #334 ) ;
#219 = ORIENTED_EDGE ( 'NONE', *, *, #192, .F. ) ;
#220 = ORIENTED_EDGE ( 'NONE', *, *, #314, .F. ) ;
#221 = ORIENTED_EDGE ( 'NONE', *, *, #124, .F. ) ;
#222 = CYLINDRICAL_SURFACE ( 'NONE', #143, 3.000000000000000000 ) ;
#223 = COORDINATED_UNIVERSAL_TIME_OFFSET ( 8, 0, .AHEAD. ) ;
#224 = CARTESIAN_POINT ( 'NONE',  ( -1.614212418857619014, 0.000000000000000000, 0.000000000000000000 ) ) ;
#225 = CC_DESIGN_APPROVAL ( #112, ( #229 ) ) ;
#226 = DIRECTION ( 'NONE',  ( -1.000000000000000000, -0.000000000000000000, -0.000000000000000000 ) ) ;
#227 = CARTESIAN_POINT ( 'NONE',  ( -1.614212418857619014, 0.000000000000000000, 0.000000000000000000 ) ) ;
#228 = CARTESIAN_POINT ( 'NONE',  ( -1.614212418857619014, 0.000000000000000000, 0.000000000000000000 ) ) ;
#229 = PRODUCT_DEFINITION ( 'UNKNOWN', '', #324, #4 ) ;
#230 = CIRCLE ( 'NONE', #127, 3.000000000000000000 ) ;
#231 = CARTESIAN_POINT ( 'NONE',  ( -1.500000000000000000, 0.000000000000000000, 0.000000000000000000 ) ) ;
#232 = DIRECTION ( 'NONE',  ( -1.000000000000000000, -0.000000000000000000, -0.000000000000000000 ) ) ;
#233 = DIRECTION ( 'NONE',  ( 0.000000000000000000, 0.000000000000000000, -1.000000000000000000 ) ) ;
#234 = VECTOR ( 'NONE', #60, 1000.000000000000000 ) ;
#235 = EDGE_CURVE ( 'NONE', #194, #92, #185, .T. ) ;
#236 = FACE_OUTER_BOUND ( 'NONE', #273, .T. ) ;
#237 = CARTESIAN_POINT ( 'NONE',  ( -1.614212418857619014, 0.000000000000000000, 3.000000000000000000 ) ) ;
#238 = CARTESIAN_POINT ( 'NONE',  ( -1.614212418857619014, 0.000000000000000000, 5.000000000000000000 ) ) ;
#239 = LINE ( 'NONE', #149, #163 ) ;
#240 = ADVANCED_FACE ( 'NONE', ( #28 ), #305, .F. ) ;
#241 = ORIENTED_EDGE ( 'NONE', *, *, #206, .T. ) ;
#242 = ORIENTED_EDGE ( 'NONE', *, *, #260, .T. ) ;
#243 = EDGE_LOOP ( 'NONE', ( #11, #178, #72, #123 ) ) ;
#244 = AXIS2_PLACEMENT_3D ( 'NONE', #224, #226, #254 ) ;
#245 = VERTEX_POINT ( 'NONE', #80 ) ;
#246 = COORDINATED_UNIVERSAL_TIME_OFFSET ( 8, 0, .AHEAD. ) ;
#247 = LOCAL_TIME ( 16, 52, 59.00000000000000000, #246 ) ;
#248 = EDGE_CURVE ( 'NONE', #317, #179, #230, .T. ) ;
#249 = EDGE_CURVE ( 'NONE', #317, #41, #188, .T. ) ;
#250 = APPROVAL_STATUS ( 'not_yet_approved' ) ;
#251 = ORIENTED_EDGE ( 'NONE', *, *, #235, .F. ) ;
#252 = DIRECTION ( 'NONE',  ( 0.000000000000000000, 0.000000000000000000, 1.000000000000000000 ) ) ;
#253 = PLANE ( 'NONE',  #323 ) ;
#254 = DIRECTION ( 'NONE',  ( 0.000000000000000000, 0.000000000000000000, 1.000000000000000000 ) ) ;
#255 = EDGE_CURVE ( 'NONE', #94, #194, #2, .T. ) ;
#256 = DIRECTION ( 'NONE',  ( 0.000000000000000000, 0.000000000000000000, 1.000000000000000000 ) ) ;
#257 = CARTESIAN_POINT ( 'NONE',  ( 0.5000000000000002220, 3.000000000000000000, 0.000000000000000000 ) ) ;
#258 = CALENDAR_DATE ( 2020, 22, 12 ) ;
#259 = DIRECTION ( 'NONE',  ( -1.000000000000000000, 0.000000000000000000, -0.000000000000000000 ) ) ;
#260 = EDGE_CURVE ( 'NONE', #275, #183, #239, .T. ) ;
#261 = DIRECTION ( 'NONE',  ( 0.000000000000000000, 0.000000000000000000, 1.000000000000000000 ) ) ;
#262 = CARTESIAN_POINT ( 'NONE',  ( -1.500000000000000000, 0.000000000000000000, 0.000000000000000000 ) ) ;
#263 = APPROVAL_STATUS ( 'not_yet_approved' ) ;
#264 = DIRECTION ( 'NONE',  ( -0.000000000000000000, 0.000000000000000000, 1.000000000000000000 ) ) ;
#265 = PLANE ( 'NONE',  #8 ) ;
#266 = APPLICATION_CONTEXT ( 'configuration controlled 3d designs of mechanical parts and assemblies' ) ;
#267 = EDGE_CURVE ( 'NONE', #218, #275, #286, .T. ) ;
#268 = DIRECTION ( 'NONE',  ( -1.000000000000000000, -0.000000000000000000, -0.000000000000000000 ) ) ;
#269 =( NAMED_UNIT ( * ) SI_UNIT ( $, .STERADIAN. ) SOLID_ANGLE_UNIT ( ) );
#270 = EDGE_LOOP ( 'NONE', ( #12, #118, #241, #251 ) ) ;
#271 = CIRCLE ( 'NONE', #175, 5.000000000000000000 ) ;
#272 = APPROVAL_PERSON_ORGANIZATION ( #209, #156, #62 ) ;
#273 = EDGE_LOOP ( 'NONE', ( #321, #173 ) ) ;
#274 = APPROVAL_DATE_TIME ( #95, #63 ) ;
#275 = VERTEX_POINT ( 'NONE', #318 ) ;
#276 = PRODUCT_DEFINITION_SHAPE ( 'NONE', 'NONE',  #229 ) ;
#277 = LOCAL_TIME ( 16, 52, 59.00000000000000000, #290 ) ;
#278 = DIRECTION ( 'NONE',  ( -1.000000000000000000, -0.000000000000000000, -0.000000000000000000 ) ) ;
#279 = CC_DESIGN_PERSON_AND_ORGANIZATION_ASSIGNMENT ( #322, #153, ( #324 ) ) ;
#280 = DIRECTION ( 'NONE',  ( 0.000000000000000000, 0.000000000000000000, 1.000000000000000000 ) ) ;
#281 = AXIS2_PLACEMENT_3D ( 'NONE', #113, #142, #110 ) ;
#282 = ORIENTED_EDGE ( 'NONE', *, *, #249, .F. ) ;
#283 = PERSON ( 'UNSPECIFIED', 'UNSPECIFIED', 'UNSPECIFIED', ('UNSPECIFIED'), ('UNSPECIFIED'), ('UNSPECIFIED') ) ;
#284 = DIRECTION ( 'NONE',  ( -1.000000000000000000, -0.000000000000000000, -0.000000000000000000 ) ) ;
#285 = DIRECTION ( 'NONE',  ( -1.000000000000000000, -0.000000000000000000, -0.000000000000000000 ) ) ;
#286 = CIRCLE ( 'NONE', #65, 5.000000000000000000 ) ;
#287 = CARTESIAN_POINT ( 'NONE',  ( -1.614212418857619014, 3.673940397442059868E-16, -3.000000000000000000 ) ) ;
#288 = DIRECTION ( 'NONE',  ( 0.000000000000000000, 0.000000000000000000, -1.000000000000000000 ) ) ;
#289 = CARTESIAN_POINT ( 'NONE',  ( -1.614212418857619014, 0.000000000000000000, 3.000000000000000000 ) ) ;
#290 = COORDINATED_UNIVERSAL_TIME_OFFSET ( 8, 0, .AHEAD. ) ;
#291 = LINE ( 'NONE', #78, #234 ) ;
#292 = CC_DESIGN_PERSON_AND_ORGANIZATION_ASSIGNMENT ( #108, #111, ( #154 ) ) ;
#293 = FACE_BOUND ( 'NONE', #84, .T. ) ;
#294 = CARTESIAN_POINT ( 'NONE',  ( -1.500000000000000000, 3.000000000000000000, 0.000000000000000000 ) ) ;
#295 = ORIENTED_EDGE ( 'NONE', *, *, #206, .F. ) ;
#296 = VERTEX_POINT ( 'NONE', #79 ) ;
#297 = ORIENTED_EDGE ( 'NONE', *, *, #207, .F. ) ;
#298 = FACE_OUTER_BOUND ( 'NONE', #89, .T. ) ;
#299 = AXIS2_PLACEMENT_3D ( 'NONE', #3, #147, #23 ) ;
#300 = FACE_OUTER_BOUND ( 'NONE', #71, .T. ) ;
#301 = VERTEX_POINT ( 'NONE', #77 ) ;
#302 = CARTESIAN_POINT ( 'NONE',  ( -0.5000000000000002220, 0.000000000000000000, 0.000000000000000000 ) ) ;
#303 = AXIS2_PLACEMENT_3D ( 'NONE', #54, #166, #233 ) ;
#304 = EDGE_CURVE ( 'NONE', #218, #296, #31, .T. ) ;
#305 = CYLINDRICAL_SURFACE ( 'NONE', #151, 3.000000000000000000 ) ;
#306 = ADVANCED_FACE ( 'NONE', ( #293, #236 ), #265, .F. ) ;
#307 = CARTESIAN_POINT ( 'NONE',  ( -1.614212418857619014, 0.000000000000000000, 0.000000000000000000 ) ) ;
#308 = APPROVAL_STATUS ( 'not_yet_approved' ) ;
#309 = PRODUCT_RELATED_PRODUCT_CATEGORY ( 'detail', '', ( #154 ) ) ;
#310 = AXIS2_PLACEMENT_3D ( 'NONE', #231, #116, #214 ) ;
#311 = DIRECTION ( 'NONE',  ( -1.000000000000000000, -0.000000000000000000, -0.000000000000000000 ) ) ;
#312 = CARTESIAN_POINT ( 'NONE',  ( -0.5000000000000002220, 0.000000000000000000, 3.000000000000000000 ) ) ;
#313 = DIRECTION ( 'NONE',  ( 0.000000000000000000, 0.000000000000000000, 1.000000000000000000 ) ) ;
#314 = EDGE_CURVE ( 'NONE', #296, #183, #202, .T. ) ;
#315 =( NAMED_UNIT ( * ) PLANE_ANGLE_UNIT ( ) SI_UNIT ( $, .RADIAN. ) );
#316 = CIRCLE ( 'NONE', #158, 3.000000000000000000 ) ;
#317 = VERTEX_POINT ( 'NONE', #141 ) ;
#318 = CARTESIAN_POINT ( 'NONE',  ( 1.500000000000000000, 6.123233995736766282E-16, -5.000000000000000000 ) ) ;
#319 = ORIENTED_EDGE ( 'NONE', *, *, #148, .T. ) ;
#320 = PERSON_AND_ORGANIZATION_ROLE ( 'design_supplier' ) ;
#321 = ORIENTED_EDGE ( 'NONE', *, *, #314, .T. ) ;
#322 = PERSON_AND_ORGANIZATION ( #283, #146 ) ;
#323 = AXIS2_PLACEMENT_3D ( 'NONE', #201, #181, #103 ) ;
#324 = PRODUCT_DEFINITION_FORMATION_WITH_SPECIFIED_SOURCE ( 'ANY', '', #154, .NOT_KNOWN. ) ;
#325 = APPROVAL_ROLE ( '' ) ;
#326 = ORIENTED_EDGE ( 'NONE', *, *, #148, .F. ) ;
#327 = CARTESIAN_POINT ( 'NONE',  ( 0.5000000000000004441, 0.000000000000000000, 0.000000000000000000 ) ) ;
#328 = PERSON_AND_ORGANIZATION ( #283, #146 ) ;
#329 = CIRCLE ( 'NONE', #161, 3.000000000000000000 ) ;
#330 = VECTOR ( 'NONE', #105, 1000.000000000000000 ) ;
#331 = CYLINDRICAL_SURFACE ( 'NONE', #75, 3.000000000000000000 ) ;
#332 = CARTESIAN_POINT ( 'NONE',  ( 1.500000000000000000, 0.000000000000000000, 0.000000000000000000 ) ) ;
#333 = FACE_OUTER_BOUND ( 'NONE', #152, .T. ) ;
#334 = CARTESIAN_POINT ( 'NONE',  ( 1.500000000000000000, 0.000000000000000000, 5.000000000000000000 ) ) ;
#335 = APPLICATION_PROTOCOL_DEFINITION ( 'international standard', 'config_control_design', 1994, #266 ) ;
ENDSEC;
END-ISO-10303-21;
